В пещере горного короля табы
Автор Сообщение
all__ Не на форуме
Админ
*******

Сообщений: 874
Зарегистрирован: 01.2010
Сообщение: #1
В пещере горного короля табы
Код:
Обозначения:
/ - слайд
p - пулл

Размер 4/4. Сначала играть тихо и медленно, а за тем постепенно
быстрее и громче

E|---------------|---------------|-----------------|-----------|
B|---------------|---------------|-----------------|-----------|
G|---------------|---------------|-----------------|-----------|
D|---------------|---------------|---------------2-|-0-------0-|
A|-------0-2---2-|-1---1---0---1-|-------0-2---2---|---2---2---|
E|-0-2-3-----3---|---2-------1---|-0-2-3-----3-----|-----3-----|

E|---------------|---------------|---------------0-|-----------|
B|---------------|---------------|-----------------|-3-------3-|
G|-------2-4---4-|-3---3---2---2-|-------2-4---4---|---4-0-4---|
D|-2-4-5-----5---|---4-------3---|-2-4-5-----5---2-|-0-------0-|
A|-------0-2---2-|-1---1---0---1-|-------0-2---2---|---2---2---|
E|-0-2-3-----3---|---2-------1---|-0-2-3-----3-----|-----3-----|

E|---------------|---------------|-----------------|-----------|
B|---------------|---------------|-----------------|-----------|
G|-4-------------|---------------|-----------------|-----------|
D|---------4---4-|-5---5---4---4-|---------4---4---|-5---5---4-|
A|-2-4-6-7---6---|---6-------6---|---4-6-7---6-----|---6-------|
E|---------------|---------------|-7---------------|-----------|

E|---------------|---------------|---------------|-------------|
B|-0-2-4-5-7-4-7-|--8-4--8-7-4-7-|-0-2-4-5-7-4-7-|--8-4--8-7---|
G|---------------|---------------|---------------|-------------|
D|---------------|---------------|---------------|-------------|
A|-2-4-6-7-9-6-9-|-10-6-10-9-6-9-|-2-4-6-7-9-6-9-|-10-6-10-9-9⁄|
E|---------------|---------------|---------------|-------------|

E|---------------|---------------|---------------0-|-----------|
B|---------------|---------------|-----------------|-3-------3-|
G|---------------|---------------|-------2-4---4---|---4-0-4---|
D|-2-------------|---------------|-2-4-5-----5---2-|-0-------0-|
A|-------0-2---2-|-1---1---0---1-|-------0-2---2---|---2---2---|
E|-0-2-3-----3---|---2-------1---|-0-2-3-----3-----|-----3-----|

E|---------------|-------------|---------------0-|-------0-----|
B|---------------|-------------|-----------------|-0---0-------|
G|---------------|-------------|-----0-2-4-0-4---|---0---------|
D|-2-------------|-------------|-2-4-2---0-------|-0-------0---|
A|-------0-2---2-|-1---1-0---1-|-------------3---|-2---0-------|
E|-0-2-3-----3---|---2-----1---|-0---------------|---------3-2-|

E||---------------|-------------|---------------0-|------------|
B||---------------|-------------|-----------------|-3-0---0-3--|
G||-----0-2-4p0-4-|-3---3-2---2-|-----0-2-4p0-4---|-----0------|
D||-2-4-----------|---4-----3---|-2-4---------2---|-----0-----0|
A||-------------2-|-----1-----0-|-----2-----------|------------|
E||-0-------0-----|-0-----0-----|-0-------0-------|-3-------3--|

E|-------------------|------------------|--------------------12|
B|--------10-12----12|11----11--10----10|--------10-12----12---|
G|9-11-12-------12---|---11--------10---|9-11-12-------12------|
D|------9-----------9|-------8---------7|------9-----------9---|
A|-------------------|------------------|----------------------|
E|0-----------0------|-0---------0------|0-----------0---------|

E|10----------10-----|--------2---2|3---3-2---2|---------4---4-|
B|---12----12--------|--2-4-5---4--|--4-----4--|---2-4-5---2---|
G|------12-----------|4------------|-----------|-4-------------|
D|-------------------|----4-------4|----5-----4|-----4-------4-|
A|10----10----10-10⁄-|2-------2----|------2----|-2-------2-----|
E|-------------------|-------------|3----------|---------------|

E|---------2---2-|-3---3--2----|---------2---2-|-4---4---2---2-|
B|---2-4-5---4---|---4----4----|---2-4-5---4-4-|---4-4-----4-4-|
G|-4-------------|-----4--4----|-4---4-------4-|-----5-------4-|
D|-----4-------4-|-----5-----4-|-----4-------4-|-----6-------4-|
A|-2-------2-----|--------2----|-2-------2-----|---------2-----|
E|---------------|-3-----------|---------------|-4-------------|

E|---------2---2-----|-4---4-------7----|-12-------------------|
B|---2-4-5---4-4-----|---4-4---7---7----|-12-------10-12----12-|
G|-4---4-------4-----|-----5-------8----|--9-11-12-------10----|
D|-----4-------4-----|-----6-------7----|--9-----------------9-|
A|-2-------2---------|-------------9----|-10-------------------|
E|-------------------|-4-------7---7----|--0-----------0-------|

E|-----------------|--------------------12|-10----------10-----|
B|11----11-10----10|--------10-12----12---|----12----12--------|
G|---11-------10---|9-11-12-------12------|-------12-----------|
D|-------8--------7|------9-----------9---|--------------------|
A|-----------------|----------------------|-10----10----10-10⁄-|
E|-0--------0------|0-----------0---------|--------------------|

E|-------------|-------------|---------------0-|-------0-----0-|
B|-------------|-------------|-------------0---|-0---0-------0-|
G|----0-2-4-0-4|3---3---2---2|-----0-2-4-0-----|---0---------0-|
D|2-4----------|--4-------3--|-2-4---------2---|-----2---2-----|
A|----2-------2|----1-------0|-----2-----------|---------------|
E|0-------0----|0-------0----|-0-------0-------|-0-------0-----|

E||----12---|----12-------|-----------7---7-12-|-11---11s14-12-|
B||----11---|----12-------|------8-10---8------|----7----------|
G||----12---|-----9-------|-9-11---------------|---------------|
D||----11---|-----9-------|--------------------|---------------|
A||---------|-------------|--------------------|---------------|
E||-0-------|-0-----------|-8---------7--------|--7---------12-|

E|----12----|----12----------|--------------------|----------0-|
B|----11----|----12----------|--0-0--0-0-0--0-0-0-|--0-0-0--0--|
G|----12----|-----9----------|-----------------9--|-8---8-11-9-|
D|----11----|-----9----------|--------7-9----9----|---9--------|
A|----------|----------------|-7-9-10-----10------|------------|
E|-0--------|-0--------------|--------------------|------------|

E|----12----|----12----------|----12--12--12--|-12--12--12--12-|
B|----11----|----11----------|----11--11--11--|-11--11--11--11-|
G|----12----|----12----------|----12--12--12--|-12--12--12--12-|
D|----11----|----11----------|----11--11--11--|-11--11--11--11-|
A|----------|----------------|----------------|----------------|
E|-0--------|-0--------------|-0--------------|----------------|

E|--12⁄-|----12-|
B|------|----12-|
G|------|-----9-|
D|------|-----9-|
A|------|----10-|
E|------|-0---0-|





Лучшая благодарность - "Мне нравится", +1 или Like! Вверху страницы.
02.01.2011 11:36
Вебсайт Найти все сообщения Цитировать это сообщение
Создать ответ 


Похожие темы
Тема: Автор Ответов: Просмотров: Посл. сообщение
  Реквием по мечте табы (одна гитара) all__ 22 287 510 09.12.2012 20:22
Посл. сообщение: Гость
  Любэ - Конь -табы + текст all__ 0 14 695 27.11.2011 11:40
Посл. сообщение: all__
  Mariage D'Amour - Ричард Клайдерман - табы одна гитара all__ 2 11 283 18.09.2011 17:20
Посл. сообщение: clk824
  Pink - I Don't Believe You - текст, табы, видео clk824 0 4 632 01.05.2011 21:33
Посл. сообщение: clk824
  Генералы песчаных карьеров - табы all__ 1 11 937 27.03.2011 14:24
Посл. сообщение: all__